All There Is

Verse 1

G-------------------------------------------------
D---0-----------------------0---------------------
A----------3---1---1--3-------------3--------3----
E------1------------------------1--------1--------

G--------------------------------------------
D---0---3--2-0-------------------------------
A----------------1-----3---------------------
E----------------------------1------0--------

G--------------------------
D---1----------------------
A-------1------------------
E-----------1--------------

Chorus

G----------------------------------------------------------
D---0------------0----------------0------------------------
A-----1-----0--------1-------0--------1-------0---1--3--5--
E--------1---------------1----------------1----------------

Verse 2

G-------------------------------------------------
D---0-----------------------0---------------------
A----------3---1---1--3-------------3--------3----
E------1------------------------1--------1--------

G--------------------------------------------
D---0---3--2-0-------------------------------
A----------------1-----3---------------------
E----------------------------1------0--------

G--------------------------
D---1----------------------
A-------1------------------
E-----------1--------------

Chorus

G----------------------------------------------------------
D---0------------0----------------0------------------------
A-----1-----0--------1-------0--------1-------0---1--3--5--
E--------1---------------1----------------1----------------

Solo

G----------------------------------------------------------------
D---0-----------------------0---------------------0--------------
A----------3---1---1--3-------------3--------3---------1----3----
E------1------------------------1--------1-----------------------

Bridge

G------------------------------------------------------
D-00000000---------------------------------------------
A-------------------33333333--1111-3333----------------
E----------11111111------------------------------------


G------------------------------------------------------
D-00000000---------------------------------------------
A-------------------33333333-------------------3-------
E----------11111111-------------------1----------------


G----------------------------------------------
D-0---3-2-0-----------------1------------------
A------------3---1---------------1-------------
E-------------------1--0--------------1--------

Chorus/End

G----------------------------------------------------------
D---0------------0----------------0------------------------
A-----1-----0-------1------0----------1--------0-----------
E--------1-------------1------------------1----------------


G--------------------------------------------------------------
D--------0*-1*-3*--------------------------0--2----------------
A--1--3*----------------3--5--3------------------1-------3--5*-
E-----------------3--5------------0-1-3-5-------------1--------

* - this should actually be played an octave lower